Violão

Categoria Tablaturas.

Vídeoaula de Tablatura

44 Comentários

Se você está procurando aprender tablaturas, pode assistir essa vídeoaula que ensina como ler tablaturas de uma maneira simples e fácil de entender.

Veja o vídeo explicativo de como ler tablaturas.

Notações de Tablaturas

Comments Off

As tablaturas podem representar diversos detalhes de um solo de violão ou guitarra além das notas como efeitos a serem feitos com os dedos da mão esquerda, por exemplo.

  • Números

O principal conteúdo das tablaturas são os números. Cada número representa a casa que deve ser pressionada quando a respectiva corda for tocada. Detalhe para o número zero, que indica que a corda deve ser tocada solta.

e|---0-----1-----2------3-----4-----5------------------------|

O exemplo acima mostra a notação de números em uma tablatura.

  • Hammer-on

A técnica de hammer-on consiste em pressionar uma nota posicionada na mesma corda da última nota tocada, com uma tonalidade mais alta e sem tocar novamente na corda com a mão direita.

Essa execução deve ser feita de modo a emitir o som da nota tocada, mesmo sem ter a corda tocada com a outra mão.

A letra que representa o hammer-on é o h:

e|---0h1-----2------3h4-----5--------------------------------|

O exemplo acima mostra a notação de hammer-on em uma tablatura.

  • Pull-off

O pull-off é a ação contrária do hammer-on. O violonista (ou guitarrista) deve soltar uma nota que está sendo tocada pressionando, antes disso, o dedo em uma nota localizada na mesma corda com uma tonalidade mais baixa. A técnica deve emitir o som da nota mais grave sem que seja necessário bater novamente na corda com a outra mão.

A letra que representa o pull-off é o p:

e|---5-----4p3-----2-----1p0---------------------------------|

O exemplo acima mostra a notação de pull-off em uma tablatura.

  • Bend

Essa técnica trata-se de empurrar a corda para cima com o dedo que está pressionando uma determinada nota. Ao empurrar essa corda, o som se transformará em uma nota de maior tonalidade, como se a corda estivesse mais esticada (o que de fato ocorre).

A letra que representa o bend é o b e o número posicionado à sua direita representa qual nota o efeito deve emitir:

e|---1b2-----2------3b4-----5--------------------------------|

O exemplo acima mostra a notação de bend em uma tablatura.

  • Slide

O slide é uma técnica bastante comum nos solos. Trata-se de escorregar o dedo para uma casa vizinha sem tocar novamente a corda. Os slides podem ser feitos tanto para uma nota mais aguda quanto para uma nota mais grave.

Para representar um slide são utilizadas barras. A barra / indica que o slide deve ser feito para uma nota mais aguda, enquanto a barra \ para uma nota mais grave.

e|---1/2-----2------4\3-----2--------------------------------|

O exemplo acima mostra a notação de slide em uma tablatura.

  • Vibrato

O vibrato representa que a pressão exercida sobre a corda deve variar, emitindo um som vibrante, sem retirar o dedo da corda.

O símbolo utilizado para representar o vibrato é o til: ~

e|---1-----2~-----3------5~--------------------------------------|

O exemplo acima mostra a notação de vibrato em uma tablatura.

  • Tap

Essa técnica consiste em pressionar uma corda em cima de uma traste, ao invés de ser no centro de uma casa. É mais utilizada em solos rápidos, produz um efeito metálico na nota tocada.

A letra utilizada para representar o tap é o t:

e|---12t-----13t-----14t-----------------------------------------|

O exemplo acima mostra a notação de tap em uma tablatura.

  • Abafar

O efeito de abafar uma nota com o dedo que pressiona as cordas consiste em não utilizar a força necessária para que a nota saia limpa, porém na posição correta da nota.

A letra utilizada para representar esse efeito é o x:

e|---12x-----13x-----14x-----------------------------------------|

O exemplo acima mostra a notação de abafar em uma tablatura.

Como Ler Tablaturas

387 Comentários

As tablaturas são a maneira mais simples de representar solos de violão e guitarra.

No primeiro contato com as tablaturas é necessário saber que existem 6 linhas paralelas onde cada uma representa uma corda do violão. De cima para baixo, a primeira linha representa a primeira corda (mizinho), enquanto a sexta linha representa a sexta corda (mizão). Veja abaixo uma representação de tablatura sem nenhuma nota:

e|---------------|-----------------------|-----------------|
B|---------------|-----------------------|-----------------|
G|---------------|-----------------------|-----------------|
D|---------------|-----------------------|-----------------|
A|---------------|-----------------------|-----------------|
E|---------------|-----------------------|-----------------|

A partir dessa representação, cada número inserido nas linhas representa a casa a ser tocada em sua respectiva casa, sendo o número 0 (zero) uma indicação de que a corda deve ser tocada solta.

Os números representados na mesma coluna, ou seja, na mesma direção vertical, devem ser tocados no mesmo instante.

Veja um exemplo de tablatura:

e|---0-----1-----|------3---------5------|-----------------|
B|---------------|------3----------------|---------5-------|
G|---------------|-----------------------|-----------------| 2x
D|---------------|-----------------------|-----------------|
A|---------------|-----------------------|-----------------|
E|---------------|-----------------------|-----------------|

A seqüência acima deve ser tocada da seguinte maneira:

  1. A primeira corda (mi) deve ser tocada solta (nota mi);
  2. A primeira corda (mi) deve ser tocada na primeira casa (nota fá);
  3. A primeira corda (mi) deve ser tocada junto com a segunda corda (si) na terceira casa (notas sol e );
  4. A primeira corda (mi) deve ser tocada na quinta casa (nota lá);
  5. A segunda corda (si) deve ser tocada na quinta casa (nota mi).

A tablatura é uma representação prática de solos, portanto não possui marcação de tempos. A noção de intervalo de tempo é passada através da distância entre os números.

A notação de repetição pode ser feita do lado direito da tablatura, como por exemplo “2x” representa que a seqüência acima deve ser tocada duas vezes.

O Que é Tablatura

41 Comentários

Uma forma de representar solos de violão, guitarra e outros instrumentos de corda, como o contra-baixo, são as tablaturas.

Através da tablatura é possível informar ao violonista exatamente quais notas ele deve tocar, demonstrando a casa e a corda do violão.

Diferentemente das cifras, as tablaturas são consideradas um meio operacional de demonstrar como tocar um solo, pois não informam de maneira explícita quais notas devem ser tocadas, ou seja, a primeira vista não é possível saber qual nota deve ser tocada, mas apenas a posição no braço do violão.

Esse fator acaba sendo desfavorável para aqueles que estão interessados em aprender teoria musical.

Com o uso de alguns carateres especiais é possível representar técnicas como hammer-on, abafar a corda, slide, entre outros.

Se você está começando a aprender a tocar, as tablaturas são o instrumento mais simples para adquirir prática e intimidade junto ao violão.

Veja abaixo um exemplo de tablatura:

e|---------------|-----------------------|-----------------|
B|--------2h3p2--|-5-5--2-----2---2---2--|-3---3---3---3---|
G|------2--------|-4-4--2-----2---2---2--|-2---2---2---1---|
D|---------------|-----------------------|-----------------|
A|----0----------|-----------------------|----------------0|
E|-0h2-----------|-4-4--2---2---2-0-0---0|-2-2---2-0-0-----|